  0
SECTION
  2
HEADER
  9
$ACADVER
  1
AC1015
  9
$ACADMAINTVER
 70
     6
  9
$DWGCODEPAGE
  3
ANSI_1254
  9
$INSBASE
 10
0.0
 20
0.0
 30
0.0
  9
$EXTMIN
 10
0.0
 20
0.0
 30
0.0
  9
$EXTMAX
 10
279.4
 20
215.9
 30
0.0
  9
$LIMMIN
 10
0.0
 20
0.0
  9
$LIMMAX
 10
279.4
 20
215.9
  9
$ORTHOMODE
 70
     0
  9
$REGENMODE
 70
     1
  9
$FILLMODE
 70
     1
  9
$QTEXTMODE
 70
     0
  9
$MIRRTEXT
 70
     1
  9
$LTSCALE
 40
1.0
  9
$ATTMODE
 70
     1
  9
$TEXTSIZE
 40
3.5
  9
$TRACEWID
 40
1.0
  9
$TEXTSTYLE
  7
Standard
  9
$CLAYER
  8
0
  9
$CELTYPE
  6
ByLayer
  9
$CECOLOR
 62
   256
  9
$CELTSCALE
 40
1.0
  9
$DISPSILH
 70
     0
  9
$DIMSCALE
 40
1.0
  9
$DIMASZ
 40
3.5
  9
$DIMEXO
 40
1.0
  9
$DIMDLI
 40
3.75
  9
$DIMRND
 40
0.0
  9
$DIMDLE
 40
0.0
  9
$DIMEXE
 40
1.0
  9
$DIMTP
 40
0.0
  9
$DIMTM
 40
0.0
  9
$DIMTXT
 40
3.5
  9
$DIMCEN
 40
2.5
  9
$DIMTSZ
 40
0.0
  9
$DIMTOL
 70
     0
  9
$DIMLIM
 70
     0
  9
$DIMTIH
 70
     1
  9
$DIMTOH
 70
     1
  9
$DIMSE1
 70
     0
  9
$DIMSE2
 70
     0
  9
$DIMTAD
 70
     1
  9
$DIMZIN
 70
     0
  9
$DIMBLK
  1

  9
$DIMASO
 70
     1
  9
$DIMSHO
 70
     1
  9
$DIMPOST
  1

  9
$DIMAPOST
  1

  9
$DIMALT
 70
     0
  9
$DIMALTD
 70
     3
  9
$DIMALTF
 40
0.0393700787
  9
$DIMLFAC
 40
1.0
  9
$DIMTOFL
 70
     1
  9
$DIMTVP
 40
0.0
  9
$DIMTIX
 70
     0
  9
$DIMSOXD
 70
     0
  9
$DIMSAH
 70
     0
  9
$DIMBLK1
  1

  9
$DIMBLK2
  1

  9
$DIMSTYLE
  2
ISO-25
  9
$DIMCLRD
 70
     0
  9
$DIMCLRE
 70
     0
  9
$DIMCLRT
 70
     0
  9
$DIMTFAC
 40
1.0
  9
$DIMGAP
 40
1.524
  9
$DIMJUST
 70
     0
  9
$DIMSD1
 70
     0
  9
$DIMSD2
 70
     0
  9
$DIMTOLJ
 70
     0
  9
$DIMTZIN
 70
     0
  9
$DIMALTZ
 70
     0
  9
$DIMALTTZ
 70
     0
  9
$DIMUPT
 70
     0
  9
$DIMDEC
 70
     2
  9
$DIMTDEC
 70
     2
  9
$DIMALTU
 70
     2
  9
$DIMALTTD
 70
     3
  9
$DIMTXSTY
  7
Standard
  9
$DIMAUNIT
 70
     0
  9
$DIMADEC
 70
     2
  9
$DIMALTRND
 40
0.0
  9
$DIMAZIN
 70
     0
  9
$DIMDSEP
 70
    44
  9
$DIMATFIT
 70
     3
  9
$DIMFRAC
 70
     0
  9
$DIMLDRBLK
  1

  9
$DIMLUNIT
 70
     2
  9
$DIMLWD
 70
    -2
  9
$DIMLWE
 70
    -2
  9
$DIMTMOVE
 70
     0
  9
$LUNITS
 70
     2
  9
$LUPREC
 70
     2
  9
$SKETCHINC
 40
1.0
  9
$FILLETRAD
 40
10.0
  9
$AUNITS
 70
     0
  9
$AUPREC
 70
     2
  9
$MENU
  1
.
  9
$ELEVATION
 40
0.0
  9
$PELEVATION
 40
0.0
  9
$THICKNESS
 40
0.0
  9
$LIMCHECK
 70
     0
  9
$CHAMFERA
 40
0.0
  9
$CHAMFERB
 40
0.0
  9
$CHAMFERC
 40
0.0
  9
$CHAMFERD
 40
0.0
  9
$SKPOLY
 70
     0
  9
$TDCREATE
 40
2458985.698926562
  9
$TDUCREATE
 40
2458985.573926562
  9
$TDUPDATE
 40
2458985.69892684
  9
$TDUUPDATE
 40
2458985.57392684
  9
$TDINDWG
 40
0.0000000116
  9
$TDUSRTIMER
 40
0.0000000116
  9
$USRTIMER
 70
     1
  9
$ANGBASE
 50
0.0
  9
$ANGDIR
 70
     0
  9
$PDMODE
 70
     0
  9
$PDSIZE
 40
-1.0
  9
$PLINEWID
 40
0.0
  9
$SPLFRAME
 70
     0
  9
$SPLINETYPE
 70
     6
  9
$SPLINESEGS
 70
     8
  9
$HANDSEED
  5
EC
  9
$SURFTAB1
 70
     6
  9
$SURFTAB2
 70
     6
  9
$SURFTYPE
 70
     6
  9
$SURFU
 70
     6
  9
$SURFV
 70
     6
  9
$UCSBASE
  2

  9
$UCSNAME
  2

  9
$UCSORG
 10
0.0
 20
0.0
 30
0.0
  9
$UCSXDIR
 10
1.0
 20
0.0
 30
0.0
  9
$UCSYDIR
 10
0.0
 20
1.0
 30
0.0
  9
$UCSORTHOREF
  2

  9
$UCSORTHOVIEW
 70
     0
  9
$UCSORGTOP
 10
0.0
 20
0.0
 30
0.0
  9
$UCSORGBOTTOM
 10
0.0
 20
0.0
 30
0.0
  9
$UCSORGLEFT
 10
0.0
 20
0.0
 30
0.0
  9
$UCSORGRIGHT
 10
0.0
 20
0.0
 30
0.0
  9
$UCSORGFRONT
 10
0.0
 20
0.0
 30
0.0
  9
$UCSORGBACK
 10
0.0
 20
0.0
 30
0.0
  9
$PUCSBASE
  2

  9
$PUCSNAME
  2

  9
$PUCSORG
 10
0.0
 20
0.0
 30
0.0
  9
$PUCSXDIR
 10
1.0
 20
0.0
 30
0.0
  9
$PUCSYDIR
 10
0.0
 20
1.0
 30
0.0
  9
$PUCSORTHOREF
  2

  9
$PUCSORTHOVIEW
 70
     0
  9
$PUCSORGTOP
 10
0.0
 20
0.0
 30
0.0
  9
$PUCSORGBOTTOM
 10
0.0
 20
0.0
 30
0.0
  9
$PUCSORGLEFT
 10
0.0
 20
0.0
 30
0.0
  9
$PUCSORGRIGHT
 10
0.0
 20
0.0
 30
0.0
  9
$PUCSORGFRONT
 10
0.0
 20
0.0
 30
0.0
  9
$PUCSORGBACK
 10
0.0
 20
0.0
 30
0.0
  9
$USERI1
 70
     0
  9
$USERI2
 70
     0
  9
$USERI3
 70
     0
  9
$USERI4
 70
     0
  9
$USERI5
 70
     0
  9
$USERR1
 40
0.0
  9
$USERR2
 40
0.0
  9
$USERR3
 40
0.0
  9
$USERR4
 40
0.0
  9
$USERR5
 40
0.0
  9
$WORLDVIEW
 70
     1
  9
$SHADEDGE
 70
     3
  9
$SHADEDIF
 70
    70
  9
$TILEMODE
 70
     1
  9
$MAXACTVP
 70
    64
  9
$PINSBASE
 10
0.0
 20
0.0
 30
0.0
  9
$PLIMCHECK
 70
     0
  9
$PEXTMIN
 10
1.0000000000E+20
 20
1.0000000000E+20
 30
1.0000000000E+20
  9
$PEXTMAX
 10
-1.0000000000E+20
 20
-1.0000000000E+20
 30
-1.0000000000E+20
  9
$PLIMMIN
 10
0.0
 20
0.0
  9
$PLIMMAX
 10
420.0
 20
297.0
  9
$UNITMODE
 70
     0
  9
$VISRETAIN
 70
     1
  9
$PLINEGEN
 70
     0
  9
$PSLTSCALE
 70
     1
  9
$TREEDEPTH
 70
  3020
  9
$CMLSTYLE
  2
Standard
  9
$CMLJUST
 70
     0
  9
$CMLSCALE
 40
20.0
  9
$PROXYGRAPHICS
 70
     1
  9
$MEASUREMENT
 70
     1
  9
$CELWEIGHT
370
    -1
  9
$ENDCAPS
280
     0
  9
$JOINSTYLE
280
     0
  9
$LWDISPLAY
290
     1
  9
$INSUNITS
 70
     4
  9
$HYPERLINKBASE
  1

  9
$STYLESHEET
  1

  9
$XEDIT
290
     1
  9
$CEPSNTYPE
380
     0
  9
$PSTYLEMODE
290
     1
  9
$FINGERPRINTGUID
  2
{420f0fe8-e84c-45a2-93c6-00349e21c80f}
  9
$VERSIONGUID
  2
{FAEB1C32-E019-11D5-929B-00C0DF256EC4}
  9
$EXTNAMES
290
     1
  9
$PSVPSCALE
 40
0.0
  9
$OLESTARTUP
290
     0
  0
ENDSEC
  0
SECTION
  2
CLASSES
  0
CLASS
  1
ACDBDICTIONARYWDFLT
  2
AcDbDictionaryWithDefault
  3
ObjectDBX Classes
 90
        0
280
     0
281
     0
  0
CLASS
  1
VISUALSTYLE
  2
AcDbVisualStyle
  3
ObjectDBX Classes
 90
     4095
280
     0
281
     0
  0
CLASS
  1
MATERIAL
  2
AcDbMaterial
  3
ObjectDBX Classes
 90
     1153
280
     0
281
     0
  0
CLASS
  1
SCALE
  2
AcDbScale
  3
ObjectDBX Classes
 90
     1153
280
     0
281
     0
  0
CLASS
  1
TABLESTYLE
  2
AcDbTableStyle
  3
ObjectDBX Classes
 90
     4095
280
     0
281
     0
  0
CLASS
  1
MLEADERSTYLE
  2
AcDbMLeaderStyle
  3
ACDB_MLEADERSTYLE_CLASS
 90
     4095
280
     0
281
     0
  0
CLASS
  1
SUN
  2
AcDbSun
  3
SCENEOE
 90
     1153
280
     0
281
     0
  0
CLASS
  1
ACDBPLACEHOLDER
  2
AcDbPlaceHolder
  3
ObjectDBX Classes
 90
        0
280
     0
281
     0
  0
CLASS
  1
LAYOUT
  2
AcDbLayout
  3
ObjectDBX Classes
 90
        0
280
     0
281
     0
  0
ENDSEC
  0
SECTION
  2
TABLES
  0
TABLE
  2
VPORT
  5
8
330
0
100
AcDbSymbolTable
 70
     1
  0
VPORT
  5
29
330
8
100
AcDbSymbolTableRecord
100
AcDbViewportTableRecord
  2
*Active
 70
     0
 10
0.0
 20
0.0
 11
1.0
 21
1.0
 12
139.7
 22
107.95
 13
0.0
 23
0.0
 14
10.0
 24
10.0
 15
10.0
 25
10.0
 16
0.0
 26
0.0
 36
1.0
 17
0.0
 27
0.0
 37
0.0
 40
215.9
 41
1.2941176471
 42
50.0
 43
0.0
 44
0.0
 50
0.0
 51
0.0
 71
     0
 72
  2000
 73
     1
 74
     3
 75
     0
 76
     0
 77
     0
 78
     0
281
     0
 65
     1
110
0.0
120
0.0
130
0.0
111
1.0
121
0.0
131
0.0
112
0.0
122
1.0
132
0.0
 79
     0
146
0.0
  0
ENDTAB
  0
TABLE
  2
LTYPE
  5
5
330
0
100
AcDbSymbolTable
 70
     6
  0
LTYPE
  5
14
330
5
100
AcDbSymbolTableRecord
100
AcDbLinetypeTableRecord
  2
ByBlock
 70
     0
  3

 72
    65
 73
     0
 40
0.0
  0
LTYPE
  5
15
330
5
100
AcDbSymbolTableRecord
100
AcDbLinetypeTableRecord
  2
ByLayer
 70
     0
  3

 72
    65
 73
     0
 40
0.0
  0
LTYPE
  5
16
330
5
100
AcDbSymbolTableRecord
100
AcDbLinetypeTableRecord
  2
Continuous
 70
     0
  3
Solid line
 72
    65
 73
     0
 40
0.0
  0
LTYPE
  5
6E
330
5
100
AcDbSymbolTableRecord
100
AcDbLinetypeTableRecord
  2
HIDDEN
 70
     0
  3
Hidden __ __ __ __ __ __ __ __ __ __ __ __ __ __
 72
    65
 73
     2
 40
1.905
 49
1.27
 74
     0
 49
-0.635
 74
     0
  0
LTYPE
  5
6F
330
5
100
AcDbSymbolTableRecord
100
AcDbLinetypeTableRecord
  2
PHANTOM
 70
     0
  3
Phantom ______  __  __  ______  __  __  ______
 72
    65
 73
     6
 40
12.7
 49
6.35
 74
     0
 49
-1.27
 74
     0
 49
1.27
 74
     0
 49
-1.27
 74
     0
 49
1.27
 74
     0
 49
-1.27
 74
     0
  0
LTYPE
  5
70
330
5
100
AcDbSymbolTableRecord
100
AcDbLinetypeTableRecord
  2
CENTER
 70
     0
  3
Center ____ _ ____ _ ____ _ ____ _ ____ _ ____
 72
    65
 73
     4
 40
10.16
 49
6.35
 74
     0
 49
-1.27
 74
     0
 49
1.27
 74
     0
 49
-1.27
 74
     0
  0
LTYPE
  5
71
330
5
100
AcDbSymbolTableRecord
100
AcDbLinetypeTableRecord
  2
CENTERX2
 70
     0
  3
Center (2x) ________  __  ________  __  _____
 72
    65
 73
     4
 40
20.32
 49
12.7
 74
     0
 49
-2.54
 74
     0
 49
2.54
 74
     0
 49
-2.54
 74
     0
  0
LTYPE
  5
72
330
5
100
AcDbSymbolTableRecord
100
AcDbLinetypeTableRecord
  2
DOT2
 70
     0
  3
Dot (.5x) ........................................
 72
    65
 73
     2
 40
0.635
 49
0.0
 74
     0
 49
-0.635
 74
     0
  0
ENDTAB
  0
TABLE
  2
LAYER
  5
2
330
0
100
AcDbSymbolTable
 70
    17
  0
LAYER
  5
10
330
2
100
AcDbSymbolTableRecord
100
AcDbLayerTableRecord
  2
0
 70
     0
 62
     7
  6
Continuous
370
    -3
390
F
  0
LAYER
  5
73
330
2
100
AcDbSymbolTableRecord
100
AcDbLayerTableRecord
  2
FORMAT
 70
     0
 62
     7
  6
Continuous
370
    -3
390
F
  0
LAYER
  5
74
330
2
100
AcDbSymbolTableRecord
100
AcDbLayerTableRecord
  2
YARDIMCI_GEOMETRI
 70
     0
 62
    -6
  6
Continuous
290
     0
370
    -3
390
F
  0
LAYER
  5
75
330
2
100
AcDbSymbolTableRecord
100
AcDbLayerTableRecord
  2
SAYFA_CERCEVESI
 70
     0
 62
     7
  6
Continuous
370
    25
390
F
  0
LAYER
  5
76
330
2
100
AcDbSymbolTableRecord
100
AcDbLayerTableRecord
  2
ANTET
 70
     0
 62
     7
  6
Continuous
370
    -3
390
F
  0
LAYER
  5
77
330
2
100
AcDbSymbolTableRecord
100
AcDbLayerTableRecord
  2
OLCU
 70
     0
 62
   150
  6
Continuous
370
    -3
390
F
  0
LAYER
  5
78
330
2
100
AcDbSymbolTableRecord
100
AcDbLayerTableRecord
  2
METIN
 70
     0
 62
    96
  6
Continuous
370
    -3
390
F
  0
LAYER
  5
79
330
2
100
AcDbSymbolTableRecord
100
AcDbLayerTableRecord
  2
BALON
 70
     0
 62
     5
  6
Continuous
370
    -3
390
F
  0
LAYER
  5
7A
330
2
100
AcDbSymbolTableRecord
100
AcDbLayerTableRecord
  2
VURGU
 70
     0
 62
     7
  6
Continuous
370
    -3
390
F
  0
LAYER
  5
7B
330
2
100
AcDbSymbolTableRecord
100
AcDbLayerTableRecord
  2
SILIK
 70
     0
 62
     7
  6
Continuous
370
    -3
390
F
  0
LAYER
  5
7C
330
2
100
AcDbSymbolTableRecord
100
AcDbLayerTableRecord
  2
MODEL
 70
     0
 62
     7
  6
Continuous
370
    -3
390
F
  0
LAYER
  5
7D
330
2
100
AcDbSymbolTableRecord
100
AcDbLayerTableRecord
  2
DETAYLANDıRMA
 70
     0
 62
   190
  6
Continuous
370
    -3
390
F
  0
LAYER
  5
7E
330
2
100
AcDbSymbolTableRecord
100
AcDbLayerTableRecord
  2
TOLERANS
 70
     0
 62
   230
  6
Continuous
370
    -3
390
F
  0
LAYER
  5
7F
330
2
100
AcDbSymbolTableRecord
100
AcDbLayerTableRecord
  2
MERKEZ_CIZGILERI
 70
     0
 62
    30
  6
Continuous
370
    -3
390
F
  0
LAYER
  5
80
330
2
100
AcDbSymbolTableRecord
100
AcDbLayerTableRecord
  2
KESIT-DETAY_CIZGILERI
 70
     0
 62
     7
  6
Continuous
370
    -3
390
F
  0
LAYER
  5
81
330
2
100
AcDbSymbolTableRecord
100
AcDbLayerTableRecord
  2
\U+041E\U+0421\U+0415\U+0412\U+042B\U+0415
 70
     0
 62
     7
  6
Continuous
370
    -3
390
F
  0
LAYER
  5
82
330
2
100
AcDbSymbolTableRecord
100
AcDbLayerTableRecord
  2
\U+0412\U+041E\U+0414\U+042F\U+041D\U+042B\U+0415_\U+0417\U+041D\U+0410\U+041A\U+0418
 70
     0
 62
    11
  6
Continuous
370
    -3
390
F
  0
ENDTAB
  0
TABLE
  2
STYLE
  5
3
330
0
100
AcDbSymbolTable
 70
     1
  0
STYLE
  5
11
330
3
100
AcDbSymbolTableRecord
100
AcDbTextStyleTableRecord
  2
Standard
 70
     0
 40
0.0
 41
1.0
 50
0.0
 71
     0
 42
3.5
  3
txt
  4

  0
ENDTAB
  0
TABLE
  2
VIEW
  5
6
330
0
100
AcDbSymbolTable
 70
     0
  0
ENDTAB
  0
TABLE
  2
UCS
  5
7
330
0
100
AcDbSymbolTable
 70
     0
  0
ENDTAB
  0
TABLE
  2
APPID
  5
9
330
0
100
AcDbSymbolTable
 70
     1
  0
APPID
  5
12
330
9
100
AcDbSymbolTableRecord
100
AcDbRegAppTableRecord
  2
ACAD
 70
     0
  0
ENDTAB
  0
TABLE
  2
DIMSTYLE
  5
A
330
0
100
AcDbSymbolTable
 70
     1
100
AcDbDimStyleTable
  0
DIMSTYLE
105
27
330
A
100
AcDbSymbolTableRecord
100
AcDbDimStyleTableRecord
  2
ISO-25
 70
     0
 41
2.5
 42
0.625
 43
3.75
 44
1.25
 73
     0
 74
     0
 77
     1
 78
     8
140
2.5
141
2.5
143
0.0393700787
147
0.625
171
     3
172
     1
178
     0
271
     2
272
     2
274
     3
278
    44
283
     0
284
     8
340
11
  0
ENDTAB
  0
TABLE
  2
BLOCK_RECORD
  5
1
330
0
100
AcDbSymbolTable
 70
     2
  0
BLOCK_RECORD
  5
1F
330
1
100
AcDbSymbolTableRecord
100
AcDbBlockTableRecord
  2
*Model_Space
340
22
  0
BLOCK_RECORD
  5
1B
330
1
100
AcDbSymbolTableRecord
100
AcDbBlockTableRecord
  2
*Paper_Space
340
1E
  0
BLOCK_RECORD
  5
23
330
1
100
AcDbSymbolTableRecord
100
AcDbBlockTableRecord
  2
*Paper_Space0
340
26
  0
BLOCK_RECORD
  5
88
330
1
100
AcDbSymbolTableRecord
100
AcDbBlockTableRecord
  2
SW_CENTERMARKSYMBOL_0
340
0
102
{BLKREFS
331
93
102
}
  0
ENDTAB
  0
ENDSEC
  0
SECTION
  2
BLOCKS
  0
BLOCK
  5
20
330
1F
100
AcDbEntity
  8
0
100
AcDbBlockBegin
  2
*Model_Space
 70
     0
 10
0.0
 20
0.0
 30
0.0
  3
*Model_Space
  1

  0
ENDBLK
  5
21
330
1F
100
AcDbEntity
  8
0
100
AcDbBlockEnd
  0
BLOCK
  5
1C
330
1B
100
AcDbEntity
 67
     1
  8
0
100
AcDbBlockBegin
  2
*Paper_Space
 70
     0
 10
0.0
 20
0.0
 30
0.0
  3
*Paper_Space
  1

  0
ENDBLK
  5
1D
330
1B
100
AcDbEntity
 67
     1
  8
0
100
AcDbBlockEnd
  0
BLOCK
  5
24
330
23
100
AcDbEntity
  8
0
100
AcDbBlockBegin
  2
*Paper_Space0
 70
     0
 10
0.0
 20
0.0
 30
0.0
  3
*Paper_Space0
  1

  0
ENDBLK
  5
25
330
23
100
AcDbEntity
  8
0
100
AcDbBlockEnd
  0
BLOCK
  5
89
330
88
100
AcDbEntity
  8
0
100
AcDbBlockBegin
  2
SW_CENTERMARKSYMBOL_0
 70
     0
 10
0.0
 20
0.0
 30
0.0
  3
SW_CENTERMARKSYMBOL_0
  1

  0
LINE
  5
8B
330
88
100
AcDbEntity
  8
FORMAT
 62
     0
100
AcDbLine
 10
0.0
 20
0.0
 30
0.0
 11
0.0
 21
2.5
 31
0.0
  0
LINE
  5
8C
330
88
100
AcDbEntity
  8
FORMAT
 62
     0
100
AcDbLine
 10
0.0
 20
0.0
 30
0.0
 11
-2.5
 21
0.0
 31
0.0
  0
LINE
  5
8D
330
88
100
AcDbEntity
  8
FORMAT
 62
     0
100
AcDbLine
 10
0.0
 20
0.0
 30
0.0
 11
0.0
 21
-2.5
 31
0.0
  0
LINE
  5
8E
330
88
100
AcDbEntity
  8
FORMAT
 62
     0
100
AcDbLine
 10
0.0
 20
0.0
 30
0.0
 11
2.5
 21
0.0
 31
0.0
  0
LINE
  5
8F
330
88
100
AcDbEntity
  8
FORMAT
 62
     0
100
AcDbLine
 10
0.0
 20
5.0
 30
0.0
 11
0.0
 21
57.5
 31
0.0
  0
LINE
  5
90
330
88
100
AcDbEntity
  8
FORMAT
 62
     0
100
AcDbLine
 10
-5.0
 20
0.0
 30
0.0
 11
-57.5
 21
0.0
 31
0.0
  0
LINE
  5
91
330
88
100
AcDbEntity
  8
FORMAT
 62
     0
100
AcDbLine
 10
0.0
 20
-5.0
 30
0.0
 11
0.0
 21
-57.5
 31
0.0
  0
LINE
  5
92
330
88
100
AcDbEntity
  8
FORMAT
 62
     0
100
AcDbLine
 10
5.0
 20
0.0
 30
0.0
 11
57.5
 21
0.0
 31
0.0
  0
ENDBLK
  5
8A
330
88
100
AcDbEntity
  8
0
100
AcDbBlockEnd
  0
ENDSEC
  0
SECTION
  2
ENTITIES
  0
CIRCLE
  5
83
330
1F
100
AcDbEntity
  8
0
  6
Continuous
 62
     7
370
    25
100
AcDbCircle
 10
139.395004093
 20
107.5851680021
 30
0.0
 40
55.0
  0
CIRCLE
  5
84
330
1F
100
AcDbEntity
  8
0
  6
Continuous
 62
     7
370
    25
100
AcDbCircle
 10
139.395004093
 20
107.5851680021
 30
0.0
 40
45.00000000000001
  0
CIRCLE
  5
85
330
1F
100
AcDbEntity
  8
0
  6
Continuous
 62
     7
370
    25
100
AcDbCircle
 10
139.395004093
 20
107.5851680021
 30
0.0
 40
44.82294853060039
  0
CIRCLE
  5
86
330
1F
100
AcDbEntity
  8
0
  6
Continuous
 62
     7
370
    25
100
AcDbCircle
 10
139.395004093
 20
107.5851680021
 30
0.0
 40
30.87705146939962
  0
CIRCLE
  5
87
330
1F
100
AcDbEntity
  8
0
  6
Continuous
 62
     7
370
    25
100
AcDbCircle
 10
139.395004093
 20
107.5851680021
 30
0.0
 40
30.7
  0
INSERT
  5
93
330
1F
100
AcDbEntity
  8
FORMAT
 62
     7
100
AcDbBlockReference
  2
SW_CENTERMARKSYMBOL_0
 10
139.395004093
 20
107.5851680021
 30
0.0
  0
LINE
  5
94
330
1F
100
AcDbEntity
  8
0
  6
Continuous
 62
     7
370
    25
100
AcDbLine
 10
-115.8291110358
 20
162.5851677041
 30
0.0
 11
-197.5606055519
 21
162.5851677041
 31
0.0
  0
LINE
  5
95
330
1F
100
AcDbEntity
  8
0
  6
Continuous
 62
     7
370
    25
100
AcDbLine
 10
-197.5606055519
 20
52.5851683001
 30
0.0
 11
-115.8291110358
 21
52.5851683001
 31
0.0
  0
ARC
  5
96
330
1F
100
AcDbEntity
  8
0
  6
Continuous
 62
     7
370
    25
100
AcDbCircle
 10
-115.8291111403
 20
160.5851680021
 30
0.0
 40
2.000000000000002
100
AcDbArc
 50
74.707012314
 51
90.0
  0
ARC
  5
97
330
1F
100
AcDbEntity
  8
0
  6
Continuous
 62
     7
370
    25
100
AcDbCircle
 10
-115.8291111403
 20
54.5851680021
 30
0.0
 40
1.999999999999995
100
AcDbArc
 50
270.0
 51
285.292987686
  0
LINE
  5
98
330
1F
100
AcDbEntity
  8
0
  6
Continuous
 62
     7
370
    25
100
AcDbLine
 10
-115.3016006163
 20
52.655989794
 30
0.0
 11
-51.8196047804
 21
70.0143487434
 31
0.0
  0
LINE
  5
99
330
1F
100
AcDbEntity
  8
0
  6
Continuous
 62
     7
370
    25
100
AcDbLine
 10
-51.8196047804
 20
145.1559872608
 30
0.0
 11
-115.3016006163
 21
162.5143462102
 31
0.0
  0
ARC
  5
9A
330
1F
100
AcDbEntity
  8
0
  6
Continuous
 62
     7
370
    25
100
AcDbCircle
 10
-51.2920931625
 20
147.0851680021
 30
0.0
 40
2.000000000000002
100
AcDbArc
 50
254.707012314
 51
270.0
  0
ARC
  5
9B
330
1F
100
AcDbEntity
  8
0
  6
Continuous
 62
     7
370
    25
100
AcDbCircle
 10
-51.2920931625
 20
68.0851680021
 30
0.0
 40
2.000000000000002
100
AcDbArc
 50
90.0
 51
105.292987686
  0
LINE
  5
9C
330
1F
100
AcDbEntity
  8
0
  6
Continuous
 62
     7
370
    25
100
AcDbLine
 10
18.4394000509
 20
145.0851694922
 30
0.0
 11
-51.2920924983
 21
145.0851694922
 31
0.0
  0
LINE
  5
9D
330
1F
100
AcDbEntity
  8
0
  6
Continuous
 62
     7
370
    25
100
AcDbLine
 10
-51.2920924983
 20
70.085166512
 30
0.0
 11
18.4394000509
 21
70.085166512
 31
0.0
  0
LINE
  5
9E
330
1F
100
AcDbEntity
  8
0
  6
Continuous
 62
     7
370
    25
100
AcDbLine
 10
-197.5606055519
 20
162.5851677041
 30
0.0
 11
-197.5606055519
 21
52.5851683001
 31
0.0
  0
LINE
  5
9F
330
1F
100
AcDbEntity
  8
0
  6
Continuous
 62
     7
370
    25
100
AcDbLine
 10
18.4394000509
 20
145.0851694922
 30
0.0
 11
18.4394000509
 21
70.085166512
 31
0.0
  0
LINE
  5
A0
330
1F
100
AcDbEntity
  8
0
  6
Continuous
 62
     1
370
    25
100
AcDbLine
 10
-115.8291110358
 20
162.5851677041
 30
0.0
 11
-115.8291110358
 21
52.5851683001
 31
0.0
  0
LINE
  5
A1
330
1F
100
AcDbEntity
  8
0
  6
Continuous
 62
     1
370
    25
100
AcDbLine
 10
-115.3016006163
 20
162.5143462102
 30
0.0
 11
-115.3016006163
 21
52.655989794
 31
0.0
  0
LINE
  5
A2
330
1F
100
AcDbEntity
  8
0
  6
Continuous
 62
     1
370
    25
100
AcDbLine
 10
-51.8196047804
 20
145.1559872608
 30
0.0
 11
-51.8196047804
 21
70.0143487434
 31
0.0
  0
LINE
  5
A3
330
1F
100
AcDbEntity
  8
0
  6
Continuous
 62
     1
370
    25
100
AcDbLine
 10
-51.2920924983
 20
145.0851694922
 30
0.0
 11
-51.2920924983
 21
70.085166512
 31
0.0
  0
LINE
  5
A4
330
1F
100
AcDbEntity
  8
0
  6
Continuous
 62
     7
370
    25
100
AcDbLine
 10
364.1532252965
 20
52.5851683001
 30
0.0
 11
445.8847198127
 21
52.5851683001
 31
0.0
  0
LINE
  5
A5
330
1F
100
AcDbEntity
  8
0
  6
Continuous
 62
     7
370
    25
100
AcDbLine
 10
445.8847198127
 20
162.5851677041
 30
0.0
 11
364.1532252965
 21
162.5851677041
 31
0.0
  0
ARC
  5
A6
330
1F
100
AcDbEntity
  8
0
  6
Continuous
 62
     7
370
    25
100
AcDbCircle
 10
364.153225401
 20
54.5851680021
 30
0.0
 40
1.999999999999993
100
AcDbArc
 50
254.707012314
 51
270.0
  0
ARC
  5
A7
330
1F
100
AcDbEntity
  8
0
  6
Continuous
 62
     7
370
    25
100
AcDbCircle
 10
364.153225401
 20
160.5851680021
 30
0.0
 40
2.0
100
AcDbArc
 50
90.0
 51
105.292987686
  0
LINE
  5
A8
330
1F
100
AcDbEntity
  8
0
  6
Continuous
 62
     7
370
    25
100
AcDbLine
 10
363.625714877
 20
162.5143462102
 30
0.0
 11
300.1437190411
 21
145.1559872608
 31
0.0
  0
LINE
  5
A9
330
1F
100
AcDbEntity
  8
0
  6
Continuous
 62
     7
370
    25
100
AcDbLine
 10
300.1437190411
 20
70.0143487434
 30
0.0
 11
363.625714877
 21
52.655989794
 31
0.0
  0
ARC
  5
AA
330
1F
100
AcDbEntity
  8
0
  6
Continuous
 62
     7
370
    25
100
AcDbCircle
 10
299.6162074233
 20
68.0851680021
 30
0.0
 40
2.0
100
AcDbArc
 50
74.707012314
 51
90.0
  0
ARC
  5
AB
330
1F
100
AcDbEntity
  8
0
  6
Continuous
 62
     7
370
    25
100
AcDbCircle
 10
299.6162074233
 20
147.0851680021
 30
0.0
 40
2.0
100
AcDbArc
 50
270.0
 51
285.292987686
  0
LINE
  5
AC
330
1F
100
AcDbEntity
  8
0
  6
Continuous
 62
     7
370
    25
100
AcDbLine
 10
229.8847142098
 20
70.085166512
 30
0.0
 11
299.616206759
 21
70.085166512
 31
0.0
  0
LINE
  5
AD
330
1F
100
AcDbEntity
  8
0
  6
Continuous
 62
     7
370
    25
100
AcDbLine
 10
299.616206759
 20
145.0851694922
 30
0.0
 11
229.8847142098
 21
145.0851694922
 31
0.0
  0
LINE
  5
AE
330
1F
100
AcDbEntity
  8
0
  6
Continuous
 62
     7
370
    25
100
AcDbLine
 10
445.8847198127
 20
107.5851680021
 30
0.0
 11
445.8847198127
 21
162.5851677041
 31
0.0
  0
LINE
  5
AF
330
1F
100
AcDbEntity
  8
0
  6
Continuous
 62
     7
370
    25
100
AcDbLine
 10
445.8847198127
 20
52.5851683001
 30
0.0
 11
445.8847198127
 21
107.5851680021
 31
0.0
  0
LINE
  5
B0
330
1F
100
AcDbEntity
  8
0
  6
Continuous
 62
     7
370
    25
100
AcDbLine
 10
229.8847142098
 20
107.5851680021
 30
0.0
 11
229.8847142098
 21
145.0851694922
 31
0.0
  0
LINE
  5
B1
330
1F
100
AcDbEntity
  8
0
  6
Continuous
 62
     7
370
    25
100
AcDbLine
 10
229.8847142098
 20
70.085166512
 30
0.0
 11
229.8847142098
 21
107.5851680021
 31
0.0
  0
LINE
  5
B2
330
1F
100
AcDbEntity
  8
0
  6
Continuous
 62
     1
370
    25
100
AcDbLine
 10
364.1532252965
 20
107.5851680021
 30
0.0
 11
364.1532252965
 21
162.5851677041
 31
0.0
  0
LINE
  5
B3
330
1F
100
AcDbEntity
  8
0
  6
Continuous
 62
     1
370
    25
100
AcDbLine
 10
364.1532252965
 20
52.5851683001
 30
0.0
 11
364.1532252965
 21
107.5851680021
 31
0.0
  0
LINE
  5
B4
330
1F
100
AcDbEntity
  8
0
  6
Continuous
 62
     1
370
    25
100
AcDbLine
 10
363.625714877
 20
107.5851680021
 30
0.0
 11
363.625714877
 21
162.5143462102
 31
0.0
  0
LINE
  5
B5
330
1F
100
AcDbEntity
  8
0
  6
Continuous
 62
     1
370
    25
100
AcDbLine
 10
363.625714877
 20
52.655989794
 30
0.0
 11
363.625714877
 21
107.5851680021
 31
0.0
  0
LINE
  5
B6
330
1F
100
AcDbEntity
  8
0
  6
Continuous
 62
     1
370
    25
100
AcDbLine
 10
300.1437190411
 20
107.5851680021
 30
0.0
 11
300.1437190411
 21
145.1559872608
 31
0.0
  0
LINE
  5
B7
330
1F
100
AcDbEntity
  8
0
  6
Continuous
 62
     1
370
    25
100
AcDbLine
 10
300.1437190411
 20
70.0143487434
 30
0.0
 11
300.1437190411
 21
107.5851680021
 31
0.0
  0
LINE
  5
B8
330
1F
100
AcDbEntity
  8
0
  6
Continuous
 62
     1
370
    25
100
AcDbLine
 10
299.616206759
 20
107.5851680021
 30
0.0
 11
299.616206759
 21
145.0851694922
 31
0.0
  0
LINE
  5
B9
330
1F
100
AcDbEntity
  8
0
  6
Continuous
 62
     1
370
    25
100
AcDbLine
 10
299.616206759
 20
70.085166512
 30
0.0
 11
299.616206759
 21
107.5851680021
 31
0.0
  0
LINE
  5
BA
330
1F
100
AcDbEntity
  8
0
  6
Continuous
 62
     7
370
    25
100
AcDbLine
 10
194.395003795
 20
355.3143336884
 30
0.0
 11
194.395003795
 21
437.0458282045
 31
0.0
  0
LINE
  5
BB
330
1F
100
AcDbEntity
  8
0
  6
Continuous
 62
     7
370
    25
100
AcDbLine
 10
84.3950043911
 20
437.0458282045
 30
0.0
 11
84.3950043911
 21
355.3143336884
 31
0.0
  0
ARC
  5
BC
330
1F
100
AcDbEntity
  8
0
  6
Continuous
 62
     7
370
    25
100
AcDbCircle
 10
192.395004093
 20
355.3143337929
 30
0.0
 40
2.0
100
AcDbArc
 50
344.707012314
 51
0.0
  0
ARC
  5
BD
330
1F
100
AcDbEntity
  8
0
  6
Continuous
 62
     7
370
    25
100
AcDbCircle
 10
86.395004093
 20
355.3143337929
 30
0.0
 40
2.0
100
AcDbArc
 50
180.0
 51
195.292987686
  0
LINE
  5
BE
330
1F
100
AcDbEntity
  8
0
  6
Continuous
 62
     7
370
    25
100
AcDbLine
 10
84.4658258849
 20
354.7868232689
 30
0.0
 11
101.8241848344
 21
291.304827433
 31
0.0
  0
LINE
  5
BF
330
1F
100
AcDbEntity
  8
0
  6
Continuous
 62
     7
370
    25
100
AcDbLine
 10
176.9658233517
 20
291.304827433
 30
0.0
 11
194.3241823012
 21
354.7868232689
 31
0.0
  0
ARC
  5
C0
330
1F
100
AcDbEntity
  8
0
  6
Continuous
 62
     7
370
    25
100
AcDbCircle
 10
178.895004093
 20
290.7773158151
 30
0.0
 40
2.000000000000009
100
AcDbArc
 50
164.707012314
 51
180.0
  0
ARC
  5
C1
330
1F
100
AcDbEntity
  8
0
  6
Continuous
 62
     7
370
    25
100
AcDbCircle
 10
99.895004093
 20
290.7773158151
 30
0.0
 40
2.000000000000009
100
AcDbArc
 50
0.0
 51
15.292987686
  0
LINE
  5
C2
330
1F
100
AcDbEntity
  8
0
  6
Continuous
 62
     7
370
    25
100
AcDbLine
 10
176.8950055832
 20
221.0458226017
 30
0.0
 11
176.8950055832
 21
290.7773151509
 31
0.0
  0
LINE
  5
C3
330
1F
100
AcDbEntity
  8
0
  6
Continuous
 62
     7
370
    25
100
AcDbLine
 10
101.8950026029
 20
290.7773151509
 30
0.0
 11
101.8950026029
 21
221.0458226017
 31
0.0
  0
LINE
  5
C4
330
1F
100
AcDbEntity
  8
0
  6
Continuous
 62
     7
370
    25
100
AcDbLine
 10
194.395003795
 20
437.0458282045
 30
0.0
 11
84.3950043911
 21
437.0458282045
 31
0.0
  0
LINE
  5
C5
330
1F
100
AcDbEntity
  8
0
  6
Continuous
 62
     7
370
    25
100
AcDbLine
 10
176.8950055832
 20
221.0458226017
 30
0.0
 11
101.8950026029
 21
221.0458226017
 31
0.0
  0
LINE
  5
C6
330
1F
100
AcDbEntity
  8
0
  6
Continuous
 62
     1
370
    25
100
AcDbLine
 10
194.395003795
 20
355.3143336884
 30
0.0
 11
84.3950043911
 21
355.3143336884
 31
0.0
  0
LINE
  5
C7
330
1F
100
AcDbEntity
  8
0
  6
Continuous
 62
     1
370
    25
100
AcDbLine
 10
194.3241823012
 20
354.7868232689
 30
0.0
 11
84.4658258849
 21
354.7868232689
 31
0.0
  0
LINE
  5
C8
330
1F
100
AcDbEntity
  8
0
  6
Continuous
 62
     1
370
    25
100
AcDbLine
 10
176.9658233517
 20
291.304827433
 30
0.0
 11
101.8241848344
 21
291.304827433
 31
0.0
  0
LINE
  5
C9
330
1F
100
AcDbEntity
  8
0
  6
Continuous
 62
     1
370
    25
100
AcDbLine
 10
176.8950055832
 20
290.7773151509
 30
0.0
 11
101.8950026029
 21
290.7773151509
 31
0.0
  0
LINE
  5
CA
330
1F
100
AcDbEntity
  8
0
  6
Continuous
 62
     7
370
    25
100
AcDbLine
 10
84.3950043911
 20
-134.3285764088
 30
0.0
 11
84.3950043911
 21
-216.0600709249
 31
0.0
  0
LINE
  5
CB
330
1F
100
AcDbEntity
  8
0
  6
Continuous
 62
     7
370
    25
100
AcDbLine
 10
194.395003795
 20
-216.0600709249
 30
0.0
 11
194.395003795
 21
-134.3285764088
 31
0.0
  0
ARC
  5
CC
330
1F
100
AcDbEntity
  8
0
  6
Continuous
 62
     7
370
    25
100
AcDbCircle
 10
86.395004093
 20
-134.3285765133
 30
0.0
 40
2.000000000000002
100
AcDbArc
 50
164.707012314
 51
180.0
  0
ARC
  5
CD
330
1F
100
AcDbEntity
  8
0
  6
Continuous
 62
     7
370
    25
100
AcDbCircle
 10
192.395004093
 20
-134.3285765133
 30
0.0
 40
2.000000000000002
100
AcDbArc
 50
0.0
 51
15.292987686
  0
LINE
  5
CE
330
1F
100
AcDbEntity
  8
0
  6
Continuous
 62
     7
370
    25
100
AcDbLine
 10
194.3241823012
 20
-133.8010659893
 30
0.0
 11
176.9658233517
 21
-70.3190701534
 31
0.0
  0
LINE
  5
CF
330
1F
100
AcDbEntity
  8
0
  6
Continuous
 62
     7
370
    25
100
AcDbLine
 10
101.8241848344
 20
-70.3190701534
 30
0.0
 11
84.4658258849
 21
-133.8010659893
 31
0.0
  0
ARC
  5
D0
330
1F
100
AcDbEntity
  8
0
  6
Continuous
 62
     7
370
    25
100
AcDbCircle
 10
99.895004093
 20
-69.7915585355
 30
0.0
 40
2.000000000000002
100
AcDbArc
 50
344.707012314
 51
0.0
  0
ARC
  5
D1
330
1F
100
AcDbEntity
  8
0
  6
Continuous
 62
     7
370
    25
100
AcDbCircle
 10
178.895004093
 20
-69.7915585355
 30
0.0
 40
2.000000000000002
100
AcDbArc
 50
180.0
 51
195.292987686
  0
LINE
  5
D2
330
1F
100
AcDbEntity
  8
0
  6
Continuous
 62
     7
370
    25
100
AcDbLine
 10
101.8950026029
 20
-0.0600653221
 30
0.0
 11
101.8950026029
 21
-69.7915578713
 31
0.0
  0
LINE
  5
D3
330
1F
100
AcDbEntity
  8
0
  6
Continuous
 62
     7
370
    25
100
AcDbLine
 10
176.8950055832
 20
-69.7915578713
 30
0.0
 11
176.8950055832
 21
-0.0600653221
 31
0.0
  0
LINE
  5
D4
330
1F
100
AcDbEntity
  8
0
  6
Continuous
 62
     7
370
    25
100
AcDbLine
 10
84.3950043911
 20
-216.0600709249
 30
0.0
 11
194.395003795
 21
-216.0600709249
 31
0.0
  0
LINE
  5
D5
330
1F
100
AcDbEntity
  8
0
  6
Continuous
 62
     7
370
    25
100
AcDbLine
 10
101.8950026029
 20
-0.0600653221
 30
0.0
 11
176.8950055832
 21
-0.0600653221
 31
0.0
  0
LINE
  5
D6
330
1F
100
AcDbEntity
  8
0
  6
Continuous
 62
     1
370
    25
100
AcDbLine
 10
84.3950043911
 20
-134.3285764088
 30
0.0
 11
194.395003795
 21
-134.3285764088
 31
0.0
  0
LINE
  5
D7
330
1F
100
AcDbEntity
  8
0
  6
Continuous
 62
     1
370
    25
100
AcDbLine
 10
84.4658258849
 20
-133.8010659893
 30
0.0
 11
194.3241823012
 21
-133.8010659893
 31
0.0
  0
LINE
  5
D8
330
1F
100
AcDbEntity
  8
0
  6
Continuous
 62
     1
370
    25
100
AcDbLine
 10
101.8241848344
 20
-70.3190701534
 30
0.0
 11
176.9658233517
 21
-70.3190701534
 31
0.0
  0
LINE
  5
D9
330
1F
100
AcDbEntity
  8
0
  6
Continuous
 62
     1
370
    25
100
AcDbLine
 10
101.8950026029
 20
-69.7915578713
 30
0.0
 11
176.8950055832
 21
-69.7915578713
 31
0.0
  0
LINE
  5
DA
330
1F
100
AcDbEntity
  8
0
  6
Continuous
 62
     7
370
    25
100
AcDbLine
 10
349.8220535782
 20
-33.172661789
 30
0.0
 11
292.0291595694
 21
0.1904657681
 31
0.0
  0
LINE
  5
DB
330
1F
100
AcDbEntity
  8
0
  6
Continuous
 62
     7
370
    25
100
AcDbLine
 10
237.0336282873
 20
-95.0749123662
 30
0.0
 11
294.8265222962
 21
-128.4380399234
 31
0.0
  0
SPLINE
  5
DC
330
1F
100
AcDbEntity
  8
0
  6
Continuous
 62
     7
370
    25
100
AcDbSpline
210
0.0
220
0.0
230
1.0
 70
     8
 71
     3
 72
    11
 73
     7
 74
     0
 42
0.000000001
 43
0.00000001
 40
0.0
 40
0.0
 40
0.0
 40
0.0
 40
0.1307406439453287
 40
0.4995285519605482
 40
0.8670357999696049
 40
1.0
 40
1.0
 40
1.0
 40
1.0
 10
353.5197256728255
 20
-35.95177715175
 30
0.0
 10
353.3653373458598
 20
-35.7992988585399
 30
0.0
 10
352.7754566853282
 20
-35.21671597754609
 30
0.0
 10
351.6473420258199
 20
-34.34908652979607
 30
0.0
 10
350.4816161555428
 20
-33.53215738194567
 30
0.0
 10
349.7585251223205
 20
-33.15067974674504
 30
0.0
 10
349.5664158198654
 20
-33.04932957223932
 30
0.0
  0
SPLINE
  5
DD
330
1F
100
AcDbEntity
  8
0
  6
Continuous
 62
     7
370
    25
100
AcDbSpline
210
0.0
220
0.0
230
1.0
 70
     8
 71
     3
 72
    11
 73
     7
 74
     0
 42
0.000000001
 43
0.00000001
 40
0.0
 40
0.0
 40
0.0
 40
0.0
 40
0.0901895379639375
 40
0.4552964176246948
 40
0.8203570189765808
 40
1.0
 40
1.0
 40
1.0
 40
1.0
 10
294.5965282609676
 20
-128.2853911430007
 30
0.0
 10
294.7211829243353
 20
-128.3651217009607
 30
0.0
 10
295.3504667964203
 20
-128.7676189111016
 30
0.0
 10
296.5691545669755
 20
-129.3462042204317
 30
0.0
 10
297.9501296111505
 20
-129.928501129509
 30
0.0
 10
298.8228195137892
 20
-130.1758080333055
 30
0.0
 10
299.1106322264125
 20
-130.2573697319305
 30
0.0
  0
LINE
  5
DE
330
1F
100
AcDbEntity
  8
0
  6
Continuous
 62
     7
370
    25
100
AcDbLine
 10
301.0643651942
 20
-130.7602628946
 30
0.0
 11
352.7892114697
 21
-140.9554959106
 31
0.0
  0
LINE
  5
DF
330
1F
100
AcDbEntity
  8
0
  6
Continuous
 62
     7
370
    25
100
AcDbLine
 10
389.6479568012
 20
-77.1073577894
 30
0.0
 11
354.9524774949
 21
-37.4132005833
 31
0.0
  0
LINE
  5
E0
330
1F
100
AcDbEntity
  8
0
  6
Continuous
 62
     7
370
    25
100
AcDbLine
 10
436.0149389604
 20
-103.1374687611
 30
0.0
 11
388.3476804265
 21
-75.6197461407
 31
0.0
  0
LINE
  5
E1
330
1F
100
AcDbEntity
  8
0
  6
Continuous
 62
     7
370
    25
100
AcDbLine
 10
350.8507277586
 20
-140.5734119444
 30
0.0
 11
398.5179862925
 21
-168.0911345649
 31
0.0
  0
LWPOLYLINE
  5
E2
330
1F
100
AcDbEntity
  8
0
  6
Continuous
 62
     7
370
    25
100
AcDbPolyline
 90
      110
 70
   128
 43
0.0
 10
225.6405211738
 20
-69.8934462525
 10
225.7051164875
 20
-67.2688167368
 10
225.8986890602
 20
-64.578324986
 10
226.2205961524
 20
-61.8309088502
 10
226.6697682879
 20
-59.0356939739
 10
227.2447118877
 20
-56.20196737
 10
227.9435171727
 20
-53.3391441503
 10
228.7638660663
 20
-50.456729123
 10
229.70302956
 20
-47.5643008226
 10
230.7578887871
 20
-44.6714681655
 10
231.9249429249
 20
-41.7878369906
 10
233.200309195
 20
-38.9229918077
 10
234.5797571075
 20
-36.0864440898
 10
236.0586979243
 20
-33.2876216251
 10
237.6322241717
 20
-30.5358183307
 10
239.2951070062
 20
-27.8401760008
 10
241.0418225567
 20
-25.209650849
 10
242.8665677288
 20
-22.6529800494
 10
244.7632812789
 20
-20.1786543618
 10
246.7256622532
 20
-17.7948983618
 10
248.747191061
 20
-15.5096248144
 10
250.8211544996
 20
-13.3304323953
 10
252.9406628764
 20
-11.2645501787
 10
255.0986730578
 20
-9.3188517082
 10
257.288018104
 20
-7.4997922608
 10
259.5014250495
 20
-5.8134198761
 10
261.7315409155
 20
-4.2653329621
 10
263.9709578994
 20
-2.86067488
 10
266.2122364241
 20
-1.6041115123
 10
268.4479313145
 20
-0.4998191928
 10
270.670615835
 20
0.4485352529
 10
272.8729065492
 20
1.2378027754
 10
275.0474876861
 20
1.8653570421
 10
277.1871350125
 20
2.3291203857
 10
279.284741516
 20
2.6275451707
 10
281.3333391373
 20
2.7596445899
 10
283.3261224773
 20
2.7249789738
 10
285.2564718467
 20
2.523663013
 10
287.117974339
 20
2.1563627143
 10
288.9044449043
 20
1.6243045242
 10
290.6099513736
 20
0.9292502314
 10
292.2288302642
 20
0.0735121746
 10
293.7556973161
 20
-0.9400710936
 10
295.185487005
 20
-2.1081272054
 10
296.5134446395
 20
-3.4267788748
 10
297.7351632398
 20
-4.891646943
 10
298.8465809034
 20
-6.4978625453
 10
299.8440071468
 20
-8.2400914488
 10
300.7241281742
 20
-10.11254622
 10
301.4840200477
 20
-12.1090059979
 10
302.121159225
 20
-14.22284007
 10
302.6334304611
 20
-16.4470246024
 10
303.0191294427
 20
-18.7741722987
 10
303.2769759593
 20
-21.196552173
 10
303.4061139032
 20
-23.7061178772
 10
303.4061139032
 20
-26.2945324164
 10
303.2769759593
 20
-28.9531976169
 10
303.0191294427
 20
-31.6732807426
 10
302.6334304611
 20
-34.4457470042
 10
302.121159225
 20
-37.2613873162
 10
301.4840200477
 20
-40.1108466241
 10
300.7241281742
 20
-42.9846588844
 10
299.8440071468
 20
-45.873279764
 10
298.8465809034
 20
-48.7671124956
 10
297.7351632398
 20
-51.6565436183
 10
296.5134446395
 20
-54.5319779576
 10
295.185487005
 20
-57.3838568762
 10
293.7556973161
 20
-60.2027130245
 10
292.2288302642
 20
-62.9791794668
 10
290.6099513736
 20
-65.7040353054
 10
288.9044449043
 20
-68.3682254534
 10
287.117974339
 20
-70.9628986542
 10
285.2564718467
 20
-73.4794439826
 10
283.3261224773
 20
-75.9094938853
 10
281.3333391373
 20
-78.2449781715
 10
279.284741516
 20
-80.4781392199
 10
277.1871350125
 20
-82.6015593534
 10
275.0474876861
 20
-84.6081802292
 10
272.8729065492
 20
-86.4913439011
 10
270.670615835
 20
-88.2447871141
 10
268.4479313145
 20
-89.8626895914
 10
266.2122364241
 20
-91.3396756483
 10
263.9709578994
 20
-92.6708373839
 10
261.7315409155
 20
-93.851755116
 10
259.5014250495
 20
-94.8785051739
 10
257.288018104
 20
-95.7476780521
 10
255.0986730578
 20
-96.4563825901
 10
252.9406628764
 20
-97.0022696402
 10
250.8211544996
 20
-97.3835197068
 10
248.747191061
 20
-97.5988745045
 10
246.7256622532
 20
-97.6476084378
 10
244.7632812789
 20
-97.5295692836
 10
242.8665677288
 20
-97.2451424477
 10
241.0418225567
 20
-96.7952775792
 10
239.2951070062
 20
-96.1814672749
 10
237.6322241717
 20
-95.4057485991
 10
236.0586979243
 20
-94.4707000392
 10
234.5797571075
 20
-93.3794262954
 10
233.200309195
 20
-92.1355552361
 10
231.9249429249
 20
-90.7432166055
 10
230.7578887871
 20
-89.2070374568
 10
229.70302956
 20
-87.5321193393
 10
228.7638660663
 20
-85.724026128
 10
227.9435171727
 20
-83.7887657725
 10
227.2447118877
 20
-81.7327659612
 10
226.6697682879
 20
-79.5628551078
 10
226.2205961524
 20
-77.2862433403
 10
225.8986890602
 20
-74.9104932221
 10
225.7051164875
 20
-72.4434956065
 10
225.6405211738
 20
-69.8934462525
  0
LWPOLYLINE
  5
E3
330
1F
100
AcDbEntity
  8
0
  6
Continuous
 62
     7
370
    25
100
AcDbPolyline
 90
       99
 70
   128
 43
0.0
 10
232.7115875106
 20
-65.811406545
 10
232.7769651751
 20
-63.4194471882
 10
232.9728294827
 20
-60.9618333443
 10
233.2983717406
 20
-58.4486659758
 10
233.7522590547
 20
-55.8902703328
 10
234.3326237929
 20
-53.2971600195
 10
235.037082024
 20
-50.6799904185
 10
235.8627387863
 20
-48.0495157241
 10
236.8062012586
 20
-45.4165455982
 10
237.8635945649
 20
-42.7918980222
 10
239.0305696774
 20
-40.1863605145
 10
240.302332392
 20
-37.6106399429
 10
241.6736564994
 20
-35.0753199394
 10
243.1389101271
 20
-32.5908167963
 10
244.6920702271
 20
-30.1673422046
 10
246.3267528687
 20
-27.8148538269
 10
248.0362435323
 20
-25.5430165163
 10
249.8135155479
 20
-23.3611703794
 10
251.651266974
 20
-21.2782760256
 10
253.5419449637
 20
-19.3028974595
 10
255.477781326
 20
-17.4431480913
 10
257.4508208431
 20
-15.7066713475
 10
259.452956503
 20
-14.1006020808
 10
261.4759597919
 20
-12.6315429986
 10
263.5115189728
 20
-11.3055273565
 10
265.5512688839
 20
-10.128004797
 10
267.5868280648
 20
-9.1038138345
 10
269.6098313537
 20
-8.2371630363
 10
271.6119670136
 20
-7.5316156742
 10
273.5850065307
 20
-6.9900694806
 10
275.520842893
 20
-6.6147497598
 10
277.4115208827
 20
-6.4071979839
 10
279.2492723088
 20
-6.3682697054
 10
281.0265443244
 20
-6.498121251
 10
282.736034988
 20
-6.7962226536
 10
284.3707176296
 20
-7.261346627
 10
285.9238777296
 20
-7.8915807375
 10
287.3891313573
 20
-8.6843380518
 10
288.7604554648
 20
-9.6363609422
 10
290.0322181793
 20
-10.7437355382
 10
291.1991932918
 20
-12.0019122604
 10
292.2565865981
 20
-13.4057195113
 10
293.2000490704
 20
-14.9493910531
 10
294.0257058327
 20
-16.6265827408
 10
294.7301640638
 20
-18.4304021809
 10
295.310528802
 20
-20.3534376304
 10
295.7644161161
 20
-22.3877861353
 10
296.089958374
 20
-24.5250904132
 10
296.2858226816
 20
-26.7565641412
 10
296.3512003462
 20
-29.0730400531
 10
296.2858226816
 20
-31.4649994099
 10
296.089958374
 20
-33.9226132538
 10
295.7644161161
 20
-36.4357806223
 10
295.310528802
 20
-38.9941762653
 10
294.7301640638
 20
-41.5872865786
 10
294.0257058327
 20
-44.2044561796
 10
293.2000490704
 20
-46.834930874
 10
292.2565865981
 20
-49.4679009999
 10
291.1991932918
 20
-52.0925485759
 10
290.0322181793
 20
-54.6980860836
 10
288.7604554648
 20
-57.2738066552
 10
287.3891313573
 20
-59.8091266587
 10
285.9238777296
 20
-62.2936298018
 10
284.3707176296
 20
-64.7171043935
 10
282.736034988
 20
-67.0695927712
 10
281.0265443244
 20
-69.3414300818
 10
279.2492723088
 20
-71.5232762187
 10
277.4115208827
 20
-73.6061705725
 10
275.520842893
 20
-75.5815491386
 10
273.5850065307
 20
-77.4412985068
 10
271.6119670136
 20
-79.1777752506
 10
269.6098313537
 20
-80.7838445173
 10
267.5868280648
 20
-82.2529035994
 10
265.5512688839
 20
-83.5789192416
 10
263.5115189728
 20
-84.7564418011
 10
261.4759597919
 20
-85.7806327635
 10
259.452956503
 20
-86.6472835618
 10
257.4508208431
 20
-87.3528309239
 10
255.477781326
 20
-87.8943771175
 10
253.5419449637
 20
-88.2696968383
 10
251.651266974
 20
-88.4772486142
 10
249.8135155479
 20
-88.5161768927
 10
248.0362435323
 20
-88.386325347
 10
246.3267528687
 20
-88.0882239445
 10
244.6920702271
 20
-87.6230999711
 10
243.1389101271
 20
-86.9928658606
 10
241.6736564994
 20
-86.2001085463
 10
240.302332392
 20
-85.2480856559
 10
239.0305696774
 20
-84.1407110599
 10
237.8635945649
 20
-82.8825343377
 10
236.8062012586
 20
-81.4787270868
 10
235.8627387863
 20
-79.935055545
 10
235.037082024
 20
-78.2578638573
 10
234.3326237929
 20
-76.4540444172
 10
233.7522590547
 20
-74.5310089677
 10
233.2983717406
 20
-72.4966604628
 10
232.9728294827
 20
-70.3593561849
 10
232.7769651751
 20
-68.1278824569
 10
232.7115875106
 20
-65.811406545
  0
ARC
  5
E4
330
1F
100
AcDbEntity
  8
0
  6
Continuous
 62
     7
370
    25
100
AcDbCircle
 10
339.3967460358
 20
-51.0434596701
 30
0.0
 40
20.68180763393507
100
AcDbArc
 50
34.1348752286
 51
46.5540118408
  0
ARC
  5
E5
330
1F
100
AcDbEntity
  8
0
  6
Continuous
 62
     7
370
    25
100
AcDbCircle
 10
305.0694415177
 20
-110.5751191621
 30
0.0
 40
20.57857247232055
100
AcDbArc
 50
253.4952942663
 51
265.822836137
  0
LINE
  5
E6
330
1F
100
AcDbEntity
  8
0
  6
Continuous
 62
     7
370
    25
100
AcDbLine
 10
352.8917270933
 20
-140.9753057023
 30
0.0
 11
352.7892114697
 21
-140.9554959106
 31
0.0
  0
LWPOLYLINE
  5
E7
330
1F
100
AcDbEntity
  8
0
  6
Continuous
 62
     7
370
    25
100
AcDbPolyline
 90
       47
 70
   128
 43
0.0
 10
436.0149389604
 20
-103.1374687611
 10
436.3408394665
 20
-103.3322645343
 10
437.5792837802
 20
-104.2056225608
 10
438.7187646595
 20
-105.2320022906
 10
439.7537345253
 20
-106.4063993575
 10
440.6791449756
 20
-107.7230968881
 10
441.490495517
 20
-109.175675393
 10
442.1838269801
 20
-110.7570606747
 10
442.7557623485
 20
-112.4595489274
 10
443.2035172962
 20
-114.2748443803
 10
443.5249107237
 20
-116.1941030256
 10
443.7183752951
 20
-118.2079746348
 10
443.7829679746
 20
-120.3066489581
 10
443.7183752951
 20
-122.4799004017
 10
443.5249107237
 20
-124.7171414504
 10
443.2035172962
 20
-127.0074730486
 10
442.7557623485
 20
-129.3397353601
 10
442.1838269801
 20
-131.7025661335
 10
441.490495517
 20
-134.0844548833
 10
440.6791449756
 20
-136.4737987837
 10
439.7537345253
 20
-138.8589524774
 10
438.7187646595
 20
-141.2283003161
 10
437.5792837802
 20
-143.5702966655
 10
436.3408394665
 20
-145.8735320608
 10
435.0094666202
 20
-148.1267871988
 10
433.5916532217
 20
-150.3190800832
 10
432.0943034517
 20
-152.4397344629
 10
430.5247153005
 20
-154.4784155716
 10
428.8905331527
 20
-156.425194002
 10
427.1997201285
 20
-158.2705829664
 10
425.4605133025
 20
-160.0055930453
 10
423.6813855085
 20
-161.6217740097
 10
421.8710051677
 20
-163.1112440949
 10
420.0381921669
 20
-164.466755016
 10
418.1918752993
 20
-165.6816982852
 10
416.3410499536
 20
-166.7501570144
 10
414.494733086
 20
-167.6669258258
 10
412.6619200852
 20
-168.4275357526
 10
410.8515397444
 20
-169.0282863173
 10
409.0724119504
 20
-169.4662425803
 10
407.3332051244
 20
-169.7392779602
 10
405.6423921002
 20
-169.8460601604
 10
404.0082099524
 20
-169.7860682765
 10
402.4386218012
 20
-169.5595950733
 10
400.9412720312
 20
-169.1677439394
 10
399.5234586327
 20
-168.6124235609
 10
398.5179862925
 20
-168.0911345649
  0
LWPOLYLINE
  5
E8
330
1F
100
AcDbEntity
  8
0
  6
Continuous
 62
     1
370
    25
100
AcDbPolyline
 90
       57
 70
   128
 43
0.0
 10
349.8220535782
 20
-33.172661789
 10
350.0217242731
 20
-33.2896153826
 10
351.548591325
 20
-34.3031986508
 10
352.9783810138
 20
-35.4712547626
 10
354.3063386484
 20
-36.789906432
 10
355.5280572487
 20
-38.2547745001
 10
356.6394749123
 20
-39.8609901025
 10
357.6369011557
 20
-41.603219006
 10
358.517022183
 20
-43.4756737771
 10
359.2769140566
 20
-45.4721335551
 10
359.9140532339
 20
-47.5859676272
 10
360.4263244699
 20
-49.8101521596
 10
360.8120234516
 20
-52.1372998558
 10
361.0698699682
 20
-54.5596797301
 10
361.1990079121
 20
-57.0692454344
 10
361.1990079121
 20
-59.6576599736
 10
361.0698699682
 20
-62.3163251741
 10
360.8120234516
 20
-65.0364082998
 10
360.4263244699
 20
-67.8088745613
 10
359.9140532339
 20
-70.6245148734
 10
359.2769140566
 20
-73.4739741813
 10
358.517022183
 20
-76.3477864416
 10
357.6369011557
 20
-79.2364073211
 10
356.6394749123
 20
-82.1302400528
 10
355.5280572487
 20
-85.0196711755
 10
354.3063386484
 20
-87.8951055148
 10
352.9783810138
 20
-90.7469844333
 10
351.548591325
 20
-93.5658405816
 10
350.0217242731
 20
-96.3423070239
 10
348.4028453825
 20
-99.0671628625
 10
346.6973389132
 20
-101.7313530105
 10
344.9108683479
 20
-104.3260262113
 10
343.0493658555
 20
-106.8425715398
 10
341.1190164861
 20
-109.2726214425
 10
339.1262331461
 20
-111.6081057287
 10
337.0776355249
 20
-113.841266777
 10
334.9800290213
 20
-115.9646869106
 10
332.8403816949
 20
-117.9713077864
 10
330.665800558
 20
-119.8544714583
 10
328.4635098439
 20
-121.6079146712
 10
326.2408253234
 20
-123.2258171486
 10
324.005130433
 20
-124.7028032055
 10
321.7638519083
 20
-126.033964941
 10
319.5244349243
 20
-127.2148826731
 10
317.2943190583
 20
-128.2416327311
 10
315.0809121129
 20
-129.1108056093
 10
312.8915670667
 20
-129.8195101473
 10
310.7335568852
 20
-130.3653971974
 10
308.6140485084
 20
-130.746647264
 10
306.5400850698
 20
-130.9620020617
 10
304.518556262
 20
-131.010735995
 10
302.5561752878
 20
-130.8926968408
 10
300.6594617376
 20
-130.6082700049
 10
298.8347165655
 20
-130.1584051364
 10
297.0880010151
 20
-129.5445948321
 10
295.4251181805
 20
-128.7688761563
 10
294.8265222962
 20
-128.4380399234
  0
LWPOLYLINE
  5
E9
330
1F
100
AcDbEntity
  8
0
  6
Continuous
 62
     1
370
    25
100
AcDbPolyline
 90
       47
 70
   128
 43
0.0
 10
356.5154696643
 20
-39.438009729
 10
356.9682954047
 20
-40.1290437833
 10
357.9644361693
 20
-41.8690292006
 10
358.8434245
 20
-43.7390731981
 10
359.6023390936
 20
-45.7329625198
 10
360.2386590415
 20
-47.8440732974
 10
360.7502690989
 20
-50.065394625
 10
361.1354702208
 20
-52.3895460507
 10
361.3929874652
 20
-54.8088057149
 10
361.5219568217
 20
-57.3151412421
 10
361.5219568217
 20
-59.9002228626
 10
361.3929874652
 20
-62.5554632393
 10
361.1354702208
 20
-65.2720459851
 10
360.7502690989
 20
-68.0409411597
 10
360.2386590415
 20
-70.8529548862
 10
359.6023390936
 20
-73.6987450376
 10
358.8434245
 20
-76.568858498
 10
357.9644361693
 20
-79.4537608204
 10
356.9682954047
 20
-82.3438658835
 10
355.8583080998
 20
-85.2295769559
 10
354.638164738
 20
-88.1013064679
 10
353.3119140508
 20
-90.9495170736
 10
351.8839682865
 20
-93.7647414242
 10
350.3590636973
 20
-96.5376323541
 10
348.7422737099
 20
-99.2589765711
 10
347.0389615109
 20
-101.9197372373
 10
345.254790583
 20
-104.5110722218
 10
343.3956851927
 20
-107.0243751614
 10
341.4678211702
 20
-109.4512959926
 10
339.4776048367
 20
-111.7837744098
 10
337.4316453448
 20
-114.0140588746
 10
335.3367401908
 20
-116.1347453975
 10
333.1998468975
 20
-118.1387847602
 10
331.0280658919
 20
-120.0195197764
 10
328.8286108704
 20
-121.7707054411
 10
326.6087883843
 20
-123.3865268001
 10
324.3759723212
 20
-124.8616106391
 10
322.1375797444
 20
-126.1910576828
 10
319.9010466503
 20
-127.3704565895
 10
317.6738020384
 20
-128.3958837115
 10
315.4632452735
 20
-129.2639374557
 10
313.2767194563
 20
-129.9717293226
 10
311.1214870156
 20
-130.5169132051
 10
309.0047089644
 20
-130.8976730294
 10
306.9334165823
 20
-131.1127482274
 10
304.9144890253
 20
-131.1614223282
 10
303.5704839782
 20
-131.0990264727
  0
LWPOLYLINE
  5
EA
330
1F
100
AcDbEntity
  8
0
  6
Continuous
 62
     1
370
    25
100
AcDbPolyline
 90
       41
 70
   128
 43
0.0
 10
389.6479568012
 20
-77.1073577894
 10
390.1155839879
 20
-77.6712286278
 10
391.0427435324
 20
-78.9904115153
 10
391.8556245312
 20
-80.4457339139
 10
392.5502651808
 20
-82.0301064168
 10
393.1232805622
 20
-83.7358100079
 10
393.5718810811
 20
-85.5545337068
 10
393.8938830037
 20
-87.4774156347
 10
394.0877110917
 20
-89.4950920639
 10
394.1524249434
 20
-91.5977301213
 10
394.0877110917
 20
-93.7750852014
 10
393.8938830037
 20
-96.0165507775
 10
393.5718810811
 20
-98.3112082117
 10
393.1232805622
 20
-100.647875045
 10
392.5502651808
 20
-103.0151681132
 10
391.8556245312
 20
-105.4015556387
 10
391.0427435324
 20
-107.7954104613
 10
390.1155839879
 20
-110.1850689731
 10
389.078659562
 20
-112.558892713
 10
387.9370265593
 20
-114.9053117126
 10
386.6962430955
 20
-117.2128967361
 10
385.3623572433
 20
-119.4704056677
 10
383.9418648858
 20
-121.6668397817
 10
382.4416886428
 20
-123.7914984938
 10
380.8691344071
 20
-125.8340318291
 10
379.2318663197
 20
-127.7844868081
 10
377.5378606717
 20
-129.6333614347
 10
375.7953690257
 20
-131.3716488005
 10
374.0128819961
 20
-132.9908792862
 10
372.1990824923
 20
-134.4831627632
 10
370.3628078522
 20
-135.8412347886
 10
368.5130042384
 20
-137.0584738057
 10
366.6586835032
 20
-138.1289503805
 10
364.8088798894
 20
-139.0474491554
 10
362.9726052493
 20
-139.8094947015
 10
361.1588057455
 20
-140.4113795559
 10
359.3763187159
 20
-140.8501647885
 10
357.6338270699
 20
-141.123715454
 10
355.9398214219
 20
-141.2306981169
 10
354.3025533345
 20
-141.1705926344
 10
352.8917270933
 20
-140.9753057023
  0
LWPOLYLINE
  5
EB
330
1F
100
AcDbEntity
  8
0
  6
Continuous
 62
     1
370
    25
100
AcDbPolyline
 90
       43
 70
   128
 43
0.0
 10
389.0123230566
 20
-76.3801472933
 10
389.4111534157
 20
-76.7673242073
 10
390.4461232815
 20
-77.9417212742
 10
391.3715337318
 20
-79.2584188048
 10
392.1828842732
 20
-80.7109973097
 10
392.8762157363
 20
-82.2923825914
 10
393.4481511047
 20
-83.9948708441
 10
393.8959060524
 20
-85.810166297
 10
394.2172994799
 20
-87.7294249423
 10
394.4107640513
 20
-89.7432965515
 10
394.4753567308
 20
-91.8419708747
 10
394.4107640513
 20
-94.0152223183
 10
394.2172994799
 20
-96.2524633671
 10
393.8959060524
 20
-98.5427949652
 10
393.4481511047
 20
-100.8750572768
 10
392.8762157363
 20
-103.2378880501
 10
392.1828842732
 20
-105.6197768
 10
391.3715337318
 20
-108.0091207003
 10
390.4461232815
 20
-110.3942743941
 10
389.4111534157
 20
-112.7636222328
 10
388.2716725365
 20
-115.1056185822
 10
387.0332282227
 20
-117.4088539774
 10
385.7018553764
 20
-119.6621091154
 10
384.2840419779
 20
-121.8544019999
 10
382.786692208
 20
-123.9750563796
 10
381.2171040567
 20
-126.0137374882
 10
379.5829219089
 20
-127.9605159187
 10
377.8921088847
 20
-129.805904883
 10
376.1529020587
 20
-131.540914962
 10
374.3737742647
 20
-133.1570959264
 10
372.5633939239
 20
-134.6465660116
 10
370.7305809231
 20
-136.0020769327
 10
368.8842640555
 20
-137.2170202019
 10
367.0334387099
 20
-138.2854789311
 10
365.1871218423
 20
-139.2022477425
 10
363.3543088414
 20
-139.9628576693
 10
361.5439285006
 20
-140.5636082339
 10
359.7648007066
 20
-141.001564497
 10
358.0255938807
 20
-141.2745998768
 10
356.3347808564
 20
-141.3813820771
 10
354.7005987086
 20
-141.3213901932
 10
353.1310105574
 20
-141.09491699
 10
351.8415935816
 20
-140.7687171169
  0
ENDSEC
  0
SECTION
  2
OBJECTS
  0
DICTIONARY
  5
C
330
0
100
AcDbDictionary
281
     1
  3
ACAD_GROUP
350
D
  3
ACAD_LAYOUT
350
1A
  3
ACAD_MLINESTYLE
350
17
  3
ACAD_PLOTSETTINGS
350
19
  3
ACAD_PLOTSTYLENAME
350
E
  3
ACAD_SCALELIST
350
47
  0
DICTIONARY
  5
D
102
{ACAD_REACTORS
330
C
102
}
330
C
100
AcDbDictionary
281
     1
  0
DICTIONARY
  5
1A
102
{ACAD_REACTORS
330
C
102
}
330
C
100
AcDbDictionary
281
     1
  3
Layout1
350
1E
  3
Layout2
350
26
  3
Model
350
22
  0
DICTIONARY
  5
17
102
{ACAD_REACTORS
330
C
102
}
330
C
100
AcDbDictionary
281
     1
  3
Standard
350
18
  0
DICTIONARY
  5
19
102
{ACAD_REACTORS
330
C
102
}
330
C
100
AcDbDictionary
281
     1
  0
ACDBDICTIONARYWDFLT
  5
E
102
{ACAD_REACTORS
330
C
102
}
330
C
100
AcDbDictionary
281
     1
  3
Normal
350
F
100
AcDbDictionaryWithDefault
340
F
  0
DICTIONARY
  5
47
102
{ACAD_REACTORS
330
C
102
}
330
C
100
AcDbDictionary
281
     1
  3
A0
350
48
  3
A1
350
49
  3
A2
350
4A
  3
A3
350
4B
  3
A4
350
4C
  3
A5
350
4D
  3
A6
350
4E
  3
A7
350
4F
  3
A8
350
50
  3
A9
350
51
  3
B0
350
52
  3
B1
350
53
  3
B2
350
54
  3
B3
350
55
  3
B4
350
56
  3
B5
350
57
  3
B6
350
58
  3
B7
350
59
  3
B8
350
5A
  3
B9
350
5B
  3
C0
350
5C
  3
C1
350
5D
  3
C2
350
5E
  3
C3
350
5F
  3
C4
350
60
  3
C5
350
61
  3
C6
350
62
  3
C7
350
63
  3
C8
350
64
  3
C9
350
65
  3
D0
350
66
  3
D1
350
67
  3
D2
350
68
  0
LAYOUT
  5
1E
102
{ACAD_REACTORS
330
1A
102
}
330
1A
100
AcDbPlotSettings
  1

  2
none_device
  4

  6

 40
0.0
 41
0.0
 42
0.0
 43
0.0
 44
0.0
 45
0.0
 46
0.0
 47
0.0
 48
0.0
 49
0.0
140
0.0
141
0.0
142
1.0
143
1.0
 70
   688
 72
     1
 73
     0
 74
     5
  7

 75
    16
147
1.0
148
0.0
149
0.0
100
AcDbLayout
  1
Layout1
 70
     1
 71
     1
 10
0.0
 20
0.0
 11
420.0
 21
297.0
 12
0.0
 22
0.0
 32
0.0
 14
1.0000000000E+20
 24
1.0000000000E+20
 34
1.0000000000E+20
 15
-1.0000000000E+20
 25
-1.0000000000E+20
 35
-1.0000000000E+20
146
0.0
 13
0.0
 23
0.0
 33
0.0
 16
1.0
 26
0.0
 36
0.0
 17
0.0
 27
1.0
 37
0.0
 76
     0
330
1B
  0
LAYOUT
  5
26
102
{ACAD_REACTORS
330
1A
102
}
330
1A
100
AcDbPlotSettings
  1

  2
none_device
  4

  6

 40
0.0
 41
0.0
 42
0.0
 43
0.0
 44
0.0
 45
0.0
 46
0.0
 47
0.0
 48
0.0
 49
0.0
140
0.0
141
0.0
142
1.0
143
1.0
 70
   688
 72
     1
 73
     0
 74
     5
  7

 75
    16
147
1.0
148
0.0
149
0.0
100
AcDbLayout
  1
Layout2
 70
     1
 71
     2
 10
0.0
 20
0.0
 11
0.0
 21
0.0
 12
0.0
 22
0.0
 32
0.0
 14
0.0
 24
0.0
 34
0.0
 15
0.0
 25
0.0
 35
0.0
146
0.0
 13
0.0
 23
0.0
 33
0.0
 16
1.0
 26
0.0
 36
0.0
 17
0.0
 27
1.0
 37
0.0
 76
     0
330
23
  0
LAYOUT
  5
22
102
{ACAD_REACTORS
330
1A
102
}
330
1A
100
AcDbPlotSettings
  1

  2
none_device
  4
Letter_(8.50_x_11.00_Inches)
  6

 40
6.35
 41
6.35
 42
6.35000508
 43
6.35000508
 44
215.9
 45
279.4
 46
0.0
 47
0.0
 48
0.0
 49
0.0
140
0.0
141
0.0
142
1.0
143
1.0
 70
  1712
 72
     1
 73
     0
 74
     0
  7

 75
     0
147
1.0
148
0.0
149
0.0
100
AcDbLayout
  1
Model
 70
     1
 71
     0
 10
0.0
 20
0.0
 11
279.4
 21
215.9
 12
0.0
 22
0.0
 32
0.0
 14
0.0
 24
0.0
 34
0.0
 15
279.4
 25
215.9
 35
0.0
146
0.0
 13
0.0
 23
0.0
 33
0.0
 16
1.0
 26
0.0
 36
0.0
 17
0.0
 27
1.0
 37
0.0
 76
     0
330
1F
331
29
  0
MLINESTYLE
  5
18
102
{ACAD_REACTORS
330
17
102
}
330
17
100
AcDbMlineStyle
  2
Standard
 70
     0
  3

 62
   256
 51
90.0
 52
90.0
 71
     2
 49
0.5
 62
   256
  6
BYLAYER
 49
-0.5
 62
   256
  6
BYLAYER
  0
ACDBPLACEHOLDER
  5
F
102
{ACAD_REACTORS
330
E
102
}
330
E
  0
SCALE
  5
48
102
{ACAD_REACTORS
330
47
102
}
330
47
100
AcDbScale
 70
     0
300
1:1
140
1.0
141
1.0
290
     1
  0
SCALE
  5
49
102
{ACAD_REACTORS
330
47
102
}
330
47
100
AcDbScale
 70
     0
300
1:2
140
1.0
141
2.0
290
     0
  0
SCALE
  5
4A
102
{ACAD_REACTORS
330
47
102
}
330
47
100
AcDbScale
 70
     0
300
1:4
140
1.0
141
4.0
290
     0
  0
SCALE
  5
4B
102
{ACAD_REACTORS
330
47
102
}
330
47
100
AcDbScale
 70
     0
300
1:5
140
1.0
141
5.0
290
     0
  0
SCALE
  5
4C
102
{ACAD_REACTORS
330
47
102
}
330
47
100
AcDbScale
 70
     0
300
1:8
140
1.0
141
8.0
290
     0
  0
SCALE
  5
4D
102
{ACAD_REACTORS
330
47
102
}
330
47
100
AcDbScale
 70
     0
300
1:10
140
1.0
141
10.0
290
     0
  0
SCALE
  5
4E
102
{ACAD_REACTORS
330
47
102
}
330
47
100
AcDbScale
 70
     0
300
1:16
140
1.0
141
16.0
290
     0
  0
SCALE
  5
4F
102
{ACAD_REACTORS
330
47
102
}
330
47
100
AcDbScale
 70
     0
300
1:20
140
1.0
141
20.0
290
     0
  0
SCALE
  5
50
102
{ACAD_REACTORS
330
47
102
}
330
47
100
AcDbScale
 70
     0
300
1:30
140
1.0
141
30.0
290
     0
  0
SCALE
  5
51
102
{ACAD_REACTORS
330
47
102
}
330
47
100
AcDbScale
 70
     0
300
1:40
140
1.0
141
40.0
290
     0
  0
SCALE
  5
52
102
{ACAD_REACTORS
330
47
102
}
330
47
100
AcDbScale
 70
     0
300
1:50
140
1.0
141
50.0
290
     0
  0
SCALE
  5
53
102
{ACAD_REACTORS
330
47
102
}
330
47
100
AcDbScale
 70
     0
300
1:100
140
1.0
141
100.0
290
     0
  0
SCALE
  5
54
102
{ACAD_REACTORS
330
47
102
}
330
47
100
AcDbScale
 70
     0
300
2:1
140
2.0
141
1.0
290
     0
  0
SCALE
  5
55
102
{ACAD_REACTORS
330
47
102
}
330
47
100
AcDbScale
 70
     0
300
4:1
140
4.0
141
1.0
290
     0
  0
SCALE
  5
56
102
{ACAD_REACTORS
330
47
102
}
330
47
100
AcDbScale
 70
     0
300
8:1
140
8.0
141
1.0
290
     0
  0
SCALE
  5
57
102
{ACAD_REACTORS
330
47
102
}
330
47
100
AcDbScale
 70
     0
300
10:1
140
10.0
141
1.0
290
     0
  0
SCALE
  5
58
102
{ACAD_REACTORS
330
47
102
}
330
47
100
AcDbScale
 70
     0
300
100:1
140
100.0
141
1.0
290
     0
  0
SCALE
  5
59
102
{ACAD_REACTORS
330
47
102
}
330
47
100
AcDbScale
 70
     0
300
1/128" = 1'-0"
140
0.0078125
141
12.0
290
     0
  0
SCALE
  5
5A
102
{ACAD_REACTORS
330
47
102
}
330
47
100
AcDbScale
 70
     0
300
1/64" = 1'-0"
140
0.015625
141
12.0
290
     0
  0
SCALE
  5
5B
102
{ACAD_REACTORS
330
47
102
}
330
47
100
AcDbScale
 70
     0
300
1/32" = 1'-0"
140
0.03125
141
12.0
290
     0
  0
SCALE
  5
5C
102
{ACAD_REACTORS
330
47
102
}
330
47
100
AcDbScale
 70
     0
300
1/16" = 1'-0"
140
0.0625
141
12.0
290
     0
  0
SCALE
  5
5D
102
{ACAD_REACTORS
330
47
102
}
330
47
100
AcDbScale
 70
     0
300
3/32" = 1'-0"
140
0.09375
141
12.0
290
     0
  0
SCALE
  5
5E
102
{ACAD_REACTORS
330
47
102
}
330
47
100
AcDbScale
 70
     0
300
1/8" = 1'-0"
140
0.125
141
12.0
290
     0
  0
SCALE
  5
5F
102
{ACAD_REACTORS
330
47
102
}
330
47
100
AcDbScale
 70
     0
300
3/16" = 1'-0"
140
0.1875
141
12.0
290
     0
  0
SCALE
  5
60
102
{ACAD_REACTORS
330
47
102
}
330
47
100
AcDbScale
 70
     0
300
1/4" = 1'-0"
140
0.25
141
12.0
290
     0
  0
SCALE
  5
61
102
{ACAD_REACTORS
330
47
102
}
330
47
100
AcDbScale
 70
     0
300
3/8" = 1'-0"
140
0.375
141
12.0
290
     0
  0
SCALE
  5
62
102
{ACAD_REACTORS
330
47
102
}
330
47
100
AcDbScale
 70
     0
300
1/2" = 1'-0"
140
0.5
141
12.0
290
     0
  0
SCALE
  5
63
102
{ACAD_REACTORS
330
47
102
}
330
47
100
AcDbScale
 70
     0
300
3/4" = 1'-0"
140
0.75
141
12.0
290
     0
  0
SCALE
  5
64
102
{ACAD_REACTORS
330
47
102
}
330
47
100
AcDbScale
 70
     0
300
1" = 1'-0"
140
1.0
141
12.0
290
     0
  0
SCALE
  5
65
102
{ACAD_REACTORS
330
47
102
}
330
47
100
AcDbScale
 70
     0
300
1-1/2" = 1'-0"
140
1.5
141
12.0
290
     0
  0
SCALE
  5
66
102
{ACAD_REACTORS
330
47
102
}
330
47
100
AcDbScale
 70
     0
300
3" = 1'-0"
140
3.0
141
12.0
290
     0
  0
SCALE
  5
67
102
{ACAD_REACTORS
330
47
102
}
330
47
100
AcDbScale
 70
     0
300
6" = 1'-0"
140
6.0
141
12.0
290
     0
  0
SCALE
  5
68
102
{ACAD_REACTORS
330
47
102
}
330
47
100
AcDbScale
 70
     0
300
1'-0" = 1'-0"
140
12.0
141
12.0
290
     0
  0
ENDSEC
  0
EOF
